ISO-10303-21;
HEADER;
FILE_DESCRIPTION (( 'STEP AP214' ),
    '1' );
FILE_NAME ('am-0049a 4in Crown Roller Rubber Omni.STEP',
    '2020-10-29T15:36:35',
    ( '' ),
    ( '' ),
    'SwSTEP 2.0',
    'SolidWorks 2019',
    '' );
FILE_SCHEMA (( 'AUTOMOTIVE_DESIGN' ));
ENDSEC;

DATA;
#1 = AXIS2_PLACEMENT_3D ( 'NONE', #120, #35, #64 ) ;
#2 = CARTESIAN_POINT ( 'NONE',  ( 0.3175000000000000044, 0.0000000000000000000, 0.0000000000000000000 ) ) ;
#3 =( CONVERSION_BASED_UNIT ( 'INCH', #161 ) LENGTH_UNIT ( ) NAMED_UNIT ( #5 ) );
#4 = MANIFOLD_SOLID_BREP ( 'Fillet1', #152 ) ;
#5 = DIMENSIONAL_EXPONENTS ( 1.000000000000000000, 0.0000000000000000000, 0.0000000000000000000, 0.0000000000000000000, 0.0000000000000000000, 0.0000000000000000000, 0.0000000000000000000 ) ;
#6 = ADVANCED_BREP_SHAPE_REPRESENTATION ( 'am-0049a 4in Crown Roller Rubber Omni', ( #4, #88 ), #36 ) ;
#7 = PRODUCT_DEFINITION_FORMATION_WITH_SPECIFIED_SOURCE ( 'ANY', '', #130, .NOT_KNOWN. ) ;
#8 = AXIS2_PLACEMENT_3D ( 'NONE', #31, #98, #50 ) ;
#9 = DIRECTION ( 'NONE',  ( 1.000000000000000000, 0.0000000000000000000, 0.0000000000000000000 ) ) ;
#10 = ADVANCED_FACE ( 'NONE', ( #14, #84 ), #196, .T. ) ;
#11 = ORIENTED_EDGE ( 'NONE', *, *, #212, .F. ) ;
#12 = FACE_OUTER_BOUND ( 'NONE', #77, .T. ) ;
#13 = FACE_OUTER_BOUND ( 'NONE', #221, .T. ) ;
#14 = FACE_OUTER_BOUND ( 'NONE', #182, .T. ) ;
#15 = FACE_OUTER_BOUND ( 'NONE', #65, .T. ) ;
#16 = EDGE_LOOP ( 'NONE', ( #11 ) ) ;
#17 = AXIS2_PLACEMENT_3D ( 'NONE', #72, #158, #220 ) ;
#18 = PRESENTATION_STYLE_ASSIGNMENT (( #68 ) ) ;
#19 = VERTEX_POINT ( 'NONE', #103 ) ;
#20 = DIRECTION ( 'NONE',  ( 0.0000000000000000000, 0.0000000000000000000, -1.000000000000000000 ) ) ;
#21 = SURFACE_STYLE_FILL_AREA ( #191 ) ;
#22 = VERTEX_POINT ( 'NONE', #192 ) ;
#23 = ORIENTED_EDGE ( 'NONE', *, *, #144, .T. ) ;
#24 = PRODUCT_CONTEXT ( 'NONE', #210, 'mechanical' ) ;
#25 = CARTESIAN_POINT ( 'NONE',  ( -0.3248081841432224892, 0.0000000000000000000, 0.0000000000000000000 ) ) ;
#26 = DIMENSIONAL_EXPONENTS ( 1.000000000000000000, 0.0000000000000000000, 0.0000000000000000000, 0.0000000000000000000, 0.0000000000000000000, 0.0000000000000000000, 0.0000000000000000000 ) ;
#27 = DIRECTION ( 'NONE',  ( -1.000000000000000000, 0.0000000000000000000, 0.0000000000000000000 ) ) ;
#28 = CIRCLE ( 'NONE', #107, 0.3419486675648754637 ) ;
#29 = MECHANICAL_DESIGN_GEOMETRIC_PRESENTATION_REPRESENTATION (  '', ( #197 ), #188 ) ;
#30 = ORIENTED_EDGE ( 'NONE', *, *, #179, .F. ) ;
#31 = CARTESIAN_POINT ( 'NONE',  ( 0.3625000000000000444, 0.3353741062915033266, 0.0000000000000000000 ) ) ;
#32 =( NAMED_UNIT ( * ) SI_UNIT ( $, .STERADIAN. ) SOLID_ANGLE_UNIT ( ) );
#33 = CARTESIAN_POINT ( 'NONE',  ( 0.3625000000000000444, 0.0000000000000000000, 0.0000000000000000000 ) ) ;
#34 = ORIENTED_EDGE ( 'NONE', *, *, #96, .T. ) ;
#35 = DIRECTION ( 'NONE',  ( -1.000000000000000000, 0.0000000000000000000, 0.0000000000000000000 ) ) ;
#36 =( GEOMETRIC_REPRESENTATION_CONTEXT ( 3 ) GLOBAL_UNCERTAINTY_ASSIGNED_CONTEXT ( ( #168 ) ) GLOBAL_UNIT_ASSIGNED_CONTEXT ( ( #106, #159, #204 ) ) REPRESENTATION_CONTEXT ( 'NONE', 'WORKASPACE' ) );
#37 = ORIENTED_EDGE ( 'NONE', *, *, #96, .F. ) ;
#38 = VERTEX_POINT ( 'NONE', #189 ) ;
#39 = DIRECTION ( 'NONE',  ( -1.000000000000000000, 0.0000000000000000000, 0.0000000000000000000 ) ) ;
#40 = FILL_AREA_STYLE ('',( #127 ) ) ;
#41 = VERTEX_POINT ( 'NONE', #207 ) ;
#42 = SHAPE_DEFINITION_REPRESENTATION ( #57, #6 ) ;
#43 = TOROIDAL_SURFACE ( 'NONE', #114, -1.631500000000000172, 2.000000000000000444 ) ;
#44 = EDGE_CURVE ( 'NONE', #110, #110, #102, .T. ) ;
#45 = DIRECTION ( 'NONE',  ( -1.000000000000000000, 0.0000000000000000000, 0.0000000000000000000 ) ) ;
#46 = APPLICATION_PROTOCOL_DEFINITION ( 'draft international standard', 'automotive_design', 1998, #121 ) ;
#47 = DIRECTION ( 'NONE',  ( 0.0000000000000000000, 0.0000000000000000000, -1.000000000000000000 ) ) ;
#48 = DIRECTION ( 'NONE',  ( 0.0000000000000000000, 0.0000000000000000000, 1.000000000000000000 ) ) ;
#49 = AXIS2_PLACEMENT_3D ( 'NONE', #25, #115, #47 ) ;
#50 = DIRECTION ( 'NONE',  ( -0.0000000000000000000, 0.0000000000000000000, -1.000000000000000000 ) ) ;
#51 = ADVANCED_FACE ( 'NONE', ( #157, #15 ), #43, .T. ) ;
#52 = LENGTH_MEASURE_WITH_UNIT ( LENGTH_MEASURE( 0.02539999999999999897 ), #142 );
#53 = EDGE_LOOP ( 'NONE', ( #37 ) ) ;
#54 = VERTEX_POINT ( 'NONE', #66 ) ;
#55 = ORIENTED_EDGE ( 'NONE', *, *, #126, .T. ) ;
#56 = VERTEX_POINT ( 'NONE', #70 ) ;
#57 = PRODUCT_DEFINITION_SHAPE ( 'NONE', 'NONE',  #172 ) ;
#58 = CARTESIAN_POINT ( 'NONE',  ( -0.3624999999999999334, 0.0000000000000000000, 0.0000000000000000000 ) ) ;
#59 = EDGE_CURVE ( 'NONE', #22, #22, #145, .T. ) ;
#60 = PRODUCT_DEFINITION_CONTEXT ( 'detailed design', #121, 'design' ) ;
#61 =( NAMED_UNIT ( * ) PLANE_ANGLE_UNIT ( ) SI_UNIT ( $, .RADIAN. ) );
#62 = FACE_OUTER_BOUND ( 'NONE', #174, .T. ) ;
#63 = ADVANCED_FACE ( 'NONE', ( #135, #62 ), #153, .F. ) ;
#64 = DIRECTION ( 'NONE',  ( 0.0000000000000000000, 0.0000000000000000000, 1.000000000000000000 ) ) ;
#65 = EDGE_LOOP ( 'NONE', ( #23 ) ) ;
#66 = CARTESIAN_POINT ( 'NONE',  ( 0.3624999999999999334, 0.0000000000000000000, 0.1215000000000001079 ) ) ;
#67 = CIRCLE ( 'NONE', #49, 0.3419486675648756857 ) ;
#68 = SURFACE_STYLE_USAGE ( .BOTH. , #223 ) ;
#69 = MECHANICAL_DESIGN_GEOMETRIC_PRESENTATION_REPRESENTATION (  '', ( #75 ), #134 ) ;
#70 = CARTESIAN_POINT ( 'NONE',  ( -0.3624999999999999334, 0.0000000000000000000, 0.1215000000000001357 ) ) ;
#71 = CIRCLE ( 'NONE', #123, 0.2975460725446661403 ) ;
#72 = CARTESIAN_POINT ( 'NONE',  ( -0.3624999999999999334, 0.0000000000000000000, 0.0000000000000000000 ) ) ;
#73 =( LENGTH_UNIT ( ) NAMED_UNIT ( * ) SI_UNIT ( $, .METRE. ) );
#74 = DIRECTION ( 'NONE',  ( 0.0000000000000000000, 0.0000000000000000000, 1.000000000000000000 ) ) ;
#75 = STYLED_ITEM ( 'NONE', ( #18 ), #6 ) ;
#76 = TOROIDAL_SURFACE ( 'NONE', #199, 0.2975460725446661403, 0.04499999999999999833 ) ;
#77 = EDGE_LOOP ( 'NONE', ( #128 ) ) ;
#78 = DIRECTION ( 'NONE',  ( 0.0000000000000000000, 0.0000000000000000000, 1.000000000000000000 ) ) ;
#79 =( CONVERSION_BASED_UNIT ( 'INCH', #214 ) LENGTH_UNIT ( ) NAMED_UNIT ( #87 ) );
#80 = COLOUR_RGB ( '',0.2509803921568627416, 0.2509803921568627416, 0.2509803921568627416 ) ;
#81 = CARTESIAN_POINT ( 'NONE',  ( 0.3624999999999999334, 0.0000000000000000000, 0.0000000000000000000 ) ) ;
#82 = FACE_OUTER_BOUND ( 'NONE', #129, .T. ) ;
#83 = ORIENTED_EDGE ( 'NONE', *, *, #141, .T. ) ;
#84 = FACE_OUTER_BOUND ( 'NONE', #101, .T. ) ;
#85 = APPLICATION_PROTOCOL_DEFINITION ( 'draft international standard', 'automotive_design', 1998, #210 ) ;
#86 = DIRECTION ( 'NONE',  ( 1.000000000000000000, -0.0000000000000000000, -0.0000000000000000000 ) ) ;
#87 = DIMENSIONAL_EXPONENTS ( 1.000000000000000000, 0.0000000000000000000, 0.0000000000000000000, 0.0000000000000000000, 0.0000000000000000000, 0.0000000000000000000, 0.0000000000000000000 ) ;
#88 = AXIS2_PLACEMENT_3D ( 'NONE', #151, #78, #9 ) ;
#89 = SURFACE_STYLE_USAGE ( .BOTH. , #178 ) ;
#90 = FILL_AREA_STYLE_COLOUR ( '', #80 ) ;
#91 =( NAMED_UNIT ( * ) PLANE_ANGLE_UNIT ( ) SI_UNIT ( $, .RADIAN. ) );
#92 = FACE_OUTER_BOUND ( 'NONE', #16, .T. ) ;
#93 = ORIENTED_EDGE ( 'NONE', *, *, #212, .T. ) ;
#94 = PLANE ( 'NONE',  #148 ) ;
#95 = ORIENTED_EDGE ( 'NONE', *, *, #126, .F. ) ;
#96 = EDGE_CURVE ( 'NONE', #41, #41, #67, .T. ) ;
#97 = DIRECTION ( 'NONE',  ( 0.0000000000000000000, 0.0000000000000000000, 1.000000000000000000 ) ) ;
#98 = DIRECTION ( 'NONE',  ( 1.000000000000000000, 0.0000000000000000000, -0.0000000000000000000 ) ) ;
#99 = ADVANCED_FACE ( 'NONE', ( #133, #202 ), #94, .T. ) ;
#100 = EDGE_LOOP ( 'NONE', ( #95 ) ) ;
#101 = EDGE_LOOP ( 'NONE', ( #160 ) ) ;
#102 = CIRCLE ( 'NONE', #183, 0.07650000000000016509 ) ;
#103 = CARTESIAN_POINT ( 'NONE',  ( 0.3174999999999998379, 0.0000000000000000000, 0.07650000000000010958 ) ) ;
#104 = DIRECTION ( 'NONE',  ( 0.0000000000000000000, 0.0000000000000000000, 1.000000000000000000 ) ) ;
#105 = PRODUCT_RELATED_PRODUCT_CATEGORY ( 'part', '', ( #130 ) ) ;
#106 =( CONVERSION_BASED_UNIT ( 'INCH', #52 ) LENGTH_UNIT ( ) NAMED_UNIT ( #26 ) );
#107 = AXIS2_PLACEMENT_3D ( 'NONE', #215, #27, #185 ) ;
#108 = PRESENTATION_LAYER_ASSIGNMENT (  '', '', ( #197 ) ) ;
#109 = SURFACE_STYLE_FILL_AREA ( #40 ) ;
#110 = VERTEX_POINT ( 'NONE', #180 ) ;
#111 = ORIENTED_EDGE ( 'NONE', *, *, #144, .F. ) ;
#112 = DIRECTION ( 'NONE',  ( 0.0000000000000000000, 0.0000000000000000000, 1.000000000000000000 ) ) ;
#113 = EDGE_LOOP ( 'NONE', ( #34 ) ) ;
#114 = AXIS2_PLACEMENT_3D ( 'NONE', #186, #119, #200 ) ;
#115 = DIRECTION ( 'NONE',  ( 1.000000000000000000, -0.0000000000000000000, -0.0000000000000000000 ) ) ;
#116 = ADVANCED_FACE ( 'NONE', ( #139, #201 ), #76, .T. ) ;
#117 = DIRECTION ( 'NONE',  ( 0.0000000000000000000, 0.0000000000000000000, -1.000000000000000000 ) ) ;
#118 = AXIS2_PLACEMENT_3D ( 'NONE', #177, #39, #104 ) ;
#119 = DIRECTION ( 'NONE',  ( -1.000000000000000000, 0.0000000000000000000, 0.0000000000000000000 ) ) ;
#120 = CARTESIAN_POINT ( 'NONE',  ( -0.3174999999999999489, 0.0000000000000000000, 0.0000000000000000000 ) ) ;
#121 = APPLICATION_CONTEXT ( 'automotive_design' ) ;
#122 = EDGE_LOOP ( 'NONE', ( #155 ) ) ;
#123 = AXIS2_PLACEMENT_3D ( 'NONE', #58, #132, #74 ) ;
#124 = DIRECTION ( 'NONE',  ( 0.0000000000000000000, 0.0000000000000000000, 1.000000000000000000 ) ) ;
#125 =( LENGTH_UNIT ( ) NAMED_UNIT ( * ) SI_UNIT ( $, .METRE. ) );
#126 = EDGE_CURVE ( 'NONE', #56, #56, #176, .T. ) ;
#127 = FILL_AREA_STYLE_COLOUR ( '', #187 ) ;
#128 = ORIENTED_EDGE ( 'NONE', *, *, #59, .T. ) ;
#129 = EDGE_LOOP ( 'NONE', ( #83 ) ) ;
#130 = PRODUCT ( 'am-0049a 4in Crown Roller Rubber Omni', 'am-0049a 4in Crown Roller Rubber Omni', '', ( #24 ) ) ;
#131 = DIRECTION ( 'NONE',  ( -1.000000000000000000, 0.0000000000000000000, 0.0000000000000000000 ) ) ;
#132 = DIRECTION ( 'NONE',  ( -1.000000000000000000, 0.0000000000000000000, 0.0000000000000000000 ) ) ;
#133 = FACE_OUTER_BOUND ( 'NONE', #190, .T. ) ;
#134 =( GEOMETRIC_REPRESENTATION_CONTEXT ( 3 ) GLOBAL_UNCERTAINTY_ASSIGNED_CONTEXT ( ( #195 ) ) GLOBAL_UNIT_ASSIGNED_CONTEXT ( ( #79, #61, #166 ) ) REPRESENTATION_CONTEXT ( 'NONE', 'WORKASPACE' ) );
#135 = FACE_OUTER_BOUND ( 'NONE', #170, .T. ) ;
#136 = DIRECTION ( 'NONE',  ( -1.000000000000000000, 0.0000000000000000000, 0.0000000000000000000 ) ) ;
#137 = TOROIDAL_SURFACE ( 'NONE', #118, 0.1215000000000001079, 0.04499999999999999833 ) ;
#138 = DIRECTION ( 'NONE',  ( 1.000000000000000000, -0.0000000000000000000, -0.0000000000000000000 ) ) ;
#139 = FACE_OUTER_BOUND ( 'NONE', #216, .T. ) ;
#140 = CARTESIAN_POINT ( 'NONE',  ( -0.3174999999999998934, 0.0000000000000000000, 0.0000000000000000000 ) ) ;
#141 = EDGE_CURVE ( 'NONE', #19, #19, #149, .T. ) ;
#142 =( LENGTH_UNIT ( ) NAMED_UNIT ( * ) SI_UNIT ( $, .METRE. ) );
#143 = ORIENTED_EDGE ( 'NONE', *, *, #59, .F. ) ;
#144 = EDGE_CURVE ( 'NONE', #175, #175, #28, .T. ) ;
#145 = CIRCLE ( 'NONE', #171, 0.2975460725446661403 ) ;
#146 = PRESENTATION_STYLE_ASSIGNMENT (( #89 ) ) ;
#147 = FACE_OUTER_BOUND ( 'NONE', #53, .T. ) ;
#148 = AXIS2_PLACEMENT_3D ( 'NONE', #209, #150, #124 ) ;
#149 = CIRCLE ( 'NONE', #208, 0.07650000000000010958 ) ;
#150 = DIRECTION ( 'NONE',  ( -1.000000000000000000, 0.0000000000000000000, 0.0000000000000000000 ) ) ;
#151 = CARTESIAN_POINT ( 'NONE',  ( 0.0000000000000000000, 0.0000000000000000000, 0.0000000000000000000 ) ) ;
#152 = CLOSED_SHELL ( 'NONE', ( #51, #162, #165, #63, #10, #99, #217, #116 ) ) ;
#153 = CYLINDRICAL_SURFACE ( 'NONE', #193, 0.07650000000000013733 ) ;
#154 = CARTESIAN_POINT ( 'NONE',  ( 0.3174999999999998379, 0.0000000000000000000, 0.0000000000000000000 ) ) ;
#155 = ORIENTED_EDGE ( 'NONE', *, *, #179, .T. ) ;
#156 = CIRCLE ( 'NONE', #206, 0.1215000000000001079 ) ;
#157 = FACE_OUTER_BOUND ( 'NONE', #113, .T. ) ;
#158 = DIRECTION ( 'NONE',  ( -1.000000000000000000, 0.0000000000000000000, 0.0000000000000000000 ) ) ;
#159 =( NAMED_UNIT ( * ) PLANE_ANGLE_UNIT ( ) SI_UNIT ( $, .RADIAN. ) );
#160 = ORIENTED_EDGE ( 'NONE', *, *, #44, .F. ) ;
#161 = LENGTH_MEASURE_WITH_UNIT ( LENGTH_MEASURE( 0.02539999999999999897 ), #73 );
#162 = ADVANCED_FACE ( 'NONE', ( #12, #169 ), #184, .T. ) ;
#163 = ORIENTED_EDGE ( 'NONE', *, *, #141, .F. ) ;
#164 = TOROIDAL_SURFACE ( 'NONE', #173, 0.2975460725446661403, 0.04499999999999999833 ) ;
#165 = ADVANCED_FACE ( 'NONE', ( #82, #13 ), #137, .T. ) ;
#166 =( NAMED_UNIT ( * ) SI_UNIT ( $, .STERADIAN. ) SOLID_ANGLE_UNIT ( ) );
#167 = DIRECTION ( 'NONE',  ( -1.000000000000000000, 0.0000000000000000000, 0.0000000000000000000 ) ) ;
#168 = UNCERTAINTY_MEASURE_WITH_UNIT (LENGTH_MEASURE( 1.000000000000000082E-05 ), #106, 'distance_accuracy_value', 'NONE');
#169 = FACE_BOUND ( 'NONE', #122, .T. ) ;
#170 = EDGE_LOOP ( 'NONE', ( #213 ) ) ;
#171 = AXIS2_PLACEMENT_3D ( 'NONE', #33, #138, #117 ) ;
#172 = PRODUCT_DEFINITION ( 'UNKNOWN', '', #7, #60 ) ;
#173 = AXIS2_PLACEMENT_3D ( 'NONE', #181, #131, #194 ) ;
#174 = EDGE_LOOP ( 'NONE', ( #163 ) ) ;
#175 = VERTEX_POINT ( 'NONE', #222 ) ;
#176 = CIRCLE ( 'NONE', #17, 0.1215000000000001357 ) ;
#177 = CARTESIAN_POINT ( 'NONE',  ( 0.3174999999999999489, 0.0000000000000000000, 0.0000000000000000000 ) ) ;
#178 = SURFACE_SIDE_STYLE ('',( #21 ) ) ;
#179 = EDGE_CURVE ( 'NONE', #54, #54, #156, .T. ) ;
#180 = CARTESIAN_POINT ( 'NONE',  ( -0.3174999999999998934, 0.0000000000000000000, 0.07650000000000016509 ) ) ;
#181 = CARTESIAN_POINT ( 'NONE',  ( -0.3174999999999999489, 0.0000000000000000000, 0.0000000000000000000 ) ) ;
#182 = EDGE_LOOP ( 'NONE', ( #55 ) ) ;
#183 = AXIS2_PLACEMENT_3D ( 'NONE', #140, #136, #219 ) ;
#184 = PLANE ( 'NONE',  #8 ) ;
#185 = DIRECTION ( 'NONE',  ( 0.0000000000000000000, 0.0000000000000000000, 1.000000000000000000 ) ) ;
#186 = CARTESIAN_POINT ( 'NONE',  ( 0.0000000000000000000, 0.0000000000000000000, 0.0000000000000000000 ) ) ;
#187 = COLOUR_RGB ( '',0.2509803921568627416, 0.2509803921568627416, 0.2509803921568627416 ) ;
#188 =( GEOMETRIC_REPRESENTATION_CONTEXT ( 3 ) GLOBAL_UNCERTAINTY_ASSIGNED_CONTEXT ( ( #211 ) ) GLOBAL_UNIT_ASSIGNED_CONTEXT ( ( #3, #91, #32 ) ) REPRESENTATION_CONTEXT ( 'NONE', 'WORKASPACE' ) );
#189 = CARTESIAN_POINT ( 'NONE',  ( -0.3624999999999999334, 0.0000000000000000000, 0.2975460725446661403 ) ) ;
#190 = EDGE_LOOP ( 'NONE', ( #93 ) ) ;
#191 = FILL_AREA_STYLE ('',( #90 ) ) ;
#192 = CARTESIAN_POINT ( 'NONE',  ( 0.3625000000000000444, 0.0000000000000000000, -0.2975460725446661403 ) ) ;
#193 = AXIS2_PLACEMENT_3D ( 'NONE', #81, #167, #97 ) ;
#194 = DIRECTION ( 'NONE',  ( 0.0000000000000000000, 0.0000000000000000000, 1.000000000000000000 ) ) ;
#195 = UNCERTAINTY_MEASURE_WITH_UNIT (LENGTH_MEASURE( 1.000000000000000082E-05 ), #79, 'distance_accuracy_value', 'NONE');
#196 = TOROIDAL_SURFACE ( 'NONE', #1, 0.1215000000000001357, 0.04499999999999999140 ) ;
#197 = STYLED_ITEM ( 'NONE', ( #146 ), #4 ) ;
#198 = DIRECTION ( 'NONE',  ( -1.000000000000000000, 0.0000000000000000000, 0.0000000000000000000 ) ) ;
#199 = AXIS2_PLACEMENT_3D ( 'NONE', #2, #86, #20 ) ;
#200 = DIRECTION ( 'NONE',  ( 0.0000000000000000000, 0.0000000000000000000, 1.000000000000000000 ) ) ;
#201 = FACE_OUTER_BOUND ( 'NONE', #203, .T. ) ;
#202 = FACE_BOUND ( 'NONE', #100, .T. ) ;
#203 = EDGE_LOOP ( 'NONE', ( #111 ) ) ;
#204 =( NAMED_UNIT ( * ) SI_UNIT ( $, .STERADIAN. ) SOLID_ANGLE_UNIT ( ) );
#205 = PRESENTATION_LAYER_ASSIGNMENT (  '', '', ( #75 ) ) ;
#206 = AXIS2_PLACEMENT_3D ( 'NONE', #218, #45, #112 ) ;
#207 = CARTESIAN_POINT ( 'NONE',  ( -0.3248081841432224892, 0.0000000000000000000, -0.3419486675648756857 ) ) ;
#208 = AXIS2_PLACEMENT_3D ( 'NONE', #154, #198, #48 ) ;
#209 = CARTESIAN_POINT ( 'NONE',  ( -0.3624999999999999334, 0.1215000000000001357, 0.0000000000000000000 ) ) ;
#210 = APPLICATION_CONTEXT ( 'automotive_design' ) ;
#211 = UNCERTAINTY_MEASURE_WITH_UNIT (LENGTH_MEASURE( 1.000000000000000082E-05 ), #3, 'distance_accuracy_value', 'NONE');
#212 = EDGE_CURVE ( 'NONE', #38, #38, #71, .T. ) ;
#213 = ORIENTED_EDGE ( 'NONE', *, *, #44, .T. ) ;
#214 = LENGTH_MEASURE_WITH_UNIT ( LENGTH_MEASURE( 0.02539999999999999897 ), #125 );
#215 = CARTESIAN_POINT ( 'NONE',  ( 0.3248081841432225447, 0.0000000000000000000, 0.0000000000000000000 ) ) ;
#216 = EDGE_LOOP ( 'NONE', ( #143 ) ) ;
#217 = ADVANCED_FACE ( 'NONE', ( #147, #92 ), #164, .T. ) ;
#218 = CARTESIAN_POINT ( 'NONE',  ( 0.3624999999999999334, 0.0000000000000000000, 0.0000000000000000000 ) ) ;
#219 = DIRECTION ( 'NONE',  ( 0.0000000000000000000, 0.0000000000000000000, 1.000000000000000000 ) ) ;
#220 = DIRECTION ( 'NONE',  ( 0.0000000000000000000, 0.0000000000000000000, 1.000000000000000000 ) ) ;
#221 = EDGE_LOOP ( 'NONE', ( #30 ) ) ;
#222 = CARTESIAN_POINT ( 'NONE',  ( 0.3248081841432225447, 0.0000000000000000000, 0.3419486675648754637 ) ) ;
#223 = SURFACE_SIDE_STYLE ('',( #109 ) ) ;
ENDSEC;
END-ISO-10303-21;
